999
DXF file: C:\Users\odhoul\ProE\ProSAP.C11\work\uhu\delta_ll-f_g_f.dxf
999
Pro/ENGINEER 2014200 by Parametric Technology Corporation
  0
SECTION
  2
HEADER
  9
$ACADVER
  1
AC1014
  9
$DWGCODEPAGE
  3
ANSI_1252
  9
$EXTMAX
 10
1189.0
 20
841.0
 30
0.0
  9
$EXTMIN
 10
0.0
 20
0.0
 30
0.0
  9
$LIMMIN
 10
0.0
 20
0.0
  9
$LIMMAX
 10
1189.0
 20
841.0
  9
$VIEWCTR
 10
594.5
 20
420.5
  9
$VIEWSIZE
 40
841.0
  9
$CLAYER
  8
0
  9
$LTSCALE
 40
65.395
  9
$CELTYPE
  6
BYLAYER
  9
$DIMSCALE
 40
1.0
  9
$DIMASZ
 40
2.5
  9
$DIMEXO
 40
0.0
  9
$DIMDLI
 40
45.182
  9
$DIMEXE
 40
1.0
  9
$DIMCEN
 40
10.701
  9
$DIMLFAC
 40
1.0
  9
$DIMBLK
  1
_ARROW_FILLED
  9
$DIMTXT
 40
2.5
  9
$DIMTOL
 70
1
  9
$DIMLIM
 70
0
  9
$DIMTFAC
 40
1.0
  9
$DIMTP
 40
0.01
  9
$DIMTM
 40
0.01
  9
$DIMGAP
 40
0.625
  9
$AUNITS
 70
0
  9
$PDMODE
 70
3
  9
$PDSIZE
 40
0.05
  9
$HANDSEED
  5
235
  9
$TILEMODE
 70
1
  9
$MEASUREMENT
 70
1
  0
ENDSEC
  0
SECTION
  2
CLASSES
  0
ENDSEC
  0
SECTION
  2
TABLES
  0
TABLE
  2
VPORT
  5
8
100
AcDbSymbolTable
 70
2
  0
VPORT
  5
1F4
100
AcDbSymbolTableRecord
100
AcDbViewportTableRecord
  2
*ACTIVE
 70
0
 10
0.0
 20
0.0
 11
1.0
 21
1.0
 12
594.5
 22
420.5
 13
0.0
 23
0.0
 14
1.0
 24
1.0
 15
0.0
 25
0.0
 16
0.0
 26
0.0
 36
1.0
 17
0.0
 27
0.0
 37
0.0
 40
841.0
 41
1.4137931034
 42
50.0
 43
0.0
 44
0.0
 50
0.0
 51
0.0
 71
0
 72
100
 73
1
 74
1
 75
0
 76
0
 77
0
 78
0
  0
ENDTAB
  0
TABLE
  2
LTYPE
  5
5
100
AcDbSymbolTable
 70
6
  0
LTYPE
  5
14
100
AcDbSymbolTableRecord
100
AcDbLinetypeTableRecord
  2
BYBLOCK
 70
0
  3

 72
65
 73
0
 40
0.0
  0
LTYPE
  5
15
100
AcDbSymbolTableRecord
100
AcDbLinetypeTableRecord
  2
BYLAYER
 70
0
  3

 72
65
 73
0
 40
0.0
  0
LTYPE
  5
16
100
AcDbSymbolTableRecord
100
AcDbLinetypeTableRecord
  2
CONTINUOUS
 70
64
  3
Solid line
 72
65
 73
0
 40
0.0
  0
LTYPE
  5
1F5
100
AcDbSymbolTableRecord
100
AcDbLinetypeTableRecord
  2
CENTER
 70
64
  3
____ _ ____ _ ____ _ ____ _ ____ _ ____ _ ____
 72
65
 73
4
 40
0.6
 49
0.375
 74
0
 49
-0.075
 74
0
 49
0.075
 74
0
 49
-0.075
 74
0
  0
LTYPE
  5
1F6
100
AcDbSymbolTableRecord
100
AcDbLinetypeTableRecord
  2
HIDDEN
 70
64
  3
- - - - - - - - - - - - - - - - - - - -
 72
65
 73
2
 40
0.2
 49
0.1
 74
0
 49
-0.1
 74
0
  0
LTYPE
  5
1F7
100
AcDbSymbolTableRecord
100
AcDbLinetypeTableRecord
  2
PHANTOM
 70
64
  3
_____ _ _ _____ _ _ _____ _ _ _____
 72
65
 73
6
 40
0.8
 49
0.45
 74
0
 49
-0.05
 74
0
 49
0.1
 74
0
 49
-0.05
 74
0
 49
0.1
 74
0
 49
-0.05
 74
0
  0
LTYPE
  5
1F8
100
AcDbSymbolTableRecord
100
AcDbLinetypeTableRecord
  2
DOT
 70
64
  3
. . . . . . . . . . . . . . . . . . . .
 72
65
 73
2
 40
0.2
 49
0.1
 74
0
 49
-0.1
 74
0
  0
LTYPE
  5
1F9
100
AcDbSymbolTableRecord
100
AcDbLinetypeTableRecord
  2
DASHED
 70
64
  3
- - - - - - - - - - - - - - - - - - - -
 72
65
 73
2
 40
0.2
 49
0.1
 74
0
 49
-0.1
 74
0
  0
ENDTAB
  0
TABLE
  2
LAYER
  5
2
100
AcDbSymbolTable
 70
36
  0
LAYER
  5
10
100
AcDbSymbolTableRecord
100
AcDbLayerTableRecord
  2
0
 70
0
 62
7
  6
CONTINUOUS
  0
LAYER
  5
1FA
100
AcDbSymbolTableRecord
100
AcDbLayerTableRecord
  2
DEFAULT_1
 70
0
 62
7
  6
CENTER
  0
LAYER
  5
1FB
100
AcDbSymbolTableRecord
100
AcDbLayerTableRecord
  2
DEFAULT_2
 70
0
 62
8
  6
HIDDEN
  0
LAYER
  5
1FC
100
AcDbSymbolTableRecord
100
AcDbLayerTableRecord
  2
DEFAULT_3
 70
0
 62
7
  6
PHANTOM
  0
LAYER
  5
1FD
100
AcDbSymbolTableRecord
100
AcDbLayerTableRecord
  2
01___SYSTEM_KSYS
 70
0
 62
7
  6
CONTINUOUS
  0
LAYER
  5
1FE
100
AcDbSymbolTableRecord
100
AcDbLayerTableRecord
  2
02___SYSTEM_EBENEN
 70
0
 62
7
  6
CONTINUOUS
  0
LAYER
  5
1FF
100
AcDbSymbolTableRecord
100
AcDbLayerTableRecord
  2
03___SYSTEM_ACHSEN
 70
0
 62
7
  6
CONTINUOUS
  0
LAYER
  5
200
100
AcDbSymbolTableRecord
100
AcDbLayerTableRecord
  2
04___PRT_KSYS
 70
0
 62
7
  6
CONTINUOUS
  0
LAYER
  5
201
100
AcDbSymbolTableRecord
100
AcDbLayerTableRecord
  2
05___PRT_EBENEN
 70
0
 62
7
  6
CONTINUOUS
  0
LAYER
  5
202
100
AcDbSymbolTableRecord
100
AcDbLayerTableRecord
  2
06___PRT_ACHSEN
 70
0
 62
7
  6
CONTINUOUS
  0
LAYER
  5
203
100
AcDbSymbolTableRecord
100
AcDbLayerTableRecord
  2
07___PRT_KURVEN
 70
0
 62
7
  6
CONTINUOUS
  0
LAYER
  5
204
100
AcDbSymbolTableRecord
100
AcDbLayerTableRecord
  2
08___PRT_PUNKTE
 70
0
 62
7
  6
CONTINUOUS
  0
LAYER
  5
205
100
AcDbSymbolTableRecord
100
AcDbLayerTableRecord
  2
09___PRT_FLAECHEN
 70
0
 62
7
  6
CONTINUOUS
  0
ENDTAB
  0
TABLE
  2
STYLE
  5
3
100
AcDbSymbolTable
 70
1
  0
STYLE
  5
11
100
AcDbSymbolTableRecord
100
AcDbTextStyleTableRecord
  2
STANDARD
 70
0
 40
0.0
 41
1.0
 50
0.0
 71
0
 42
0.2
  3
arial.ttf
  4

  0
STYLE
  5
206
100
AcDbSymbolTableRecord
100
AcDbTextStyleTableRecord
  2
TEXTSTYLE_1
 70
0
 40
0.0
 41
0.8
 50
0.0
 71
0
 42
0.2
  3
gdt
  4

  0
ENDTAB
  0
TABLE
  2
VIEW
  5
6
100
AcDbSymbolTable
 70
0
  0
ENDTAB
  0
TABLE
  2
UCS
  5
7
100
AcDbSymbolTable
 70
0
  0
ENDTAB
  0
TABLE
  2
APPID
  5
9
100
AcDbSymbolTable
 70
1
  0
APPID
  5
207
100
AcDbSymbolTableRecord
100
AcDbRegAppTableRecord
  2
ACAD
 70
0
  0
ENDTAB
  0
TABLE
  2
BLOCK_RECORD
  5
1
100
AcDbSymbolTable
 70
0
  0
BLOCK_RECORD
  5
1F
100
AcDbSymbolTableRecord
100
AcDbBlockTableRecord
  2
*MODEL_SPACE
  0
BLOCK_RECORD
  5
1B
100
AcDbSymbolTableRecord
100
AcDbBlockTableRecord
  2
*PAPER_SPACE
  0
ENDTAB
  0
TABLE
  2
DIMSTYLE
  5
A
100
AcDbSymbolTable
 70
1
  0
DIMSTYLE
105
208
100
AcDbSymbolTableRecord
100
AcDbDimStyleTableRecord
  2
STANDARD
 70
0
  3

  4

  5
_ARROW_FILLED
  6
_ARROW_FILLED
  7
_ARROW_FILLED
 40
1.0
 41
2.5
 42
0.0
 43
0.38
 44
1.0
 45
0.0
 46
0.0
 47
0.01
 48
0.01
140
2.5
141
0.09
142
0.0
143
25.4
144
1.0
145
0.0
146
1.0
147
0.625
 71
1.0
 72
0.0
 73
0
 74
0
 75
0
 76
0
 77
1
 78
8
170
0
171
2
172
0
173
0
174
0
175
0
176
0
177
0
178
5
270
2
271
2
272
2
273
2
274
2
275
0
280
0
281
0
282
0
283
1
284
8
285
0
286
0
287
3
288
0
340
11
  0
ENDTAB
  0
ENDSEC
  0
SECTION
  2
BLOCKS
  0
BLOCK
  5
20
100
AcDbEntity
  8
0
100
AcDbBlockBegin
  2
*MODEL_SPACE
 70
0
 10
0.0
 20
0.0
 30
0.0
  3
*MODEL_SPACE
  1

  0
ENDBLK
  5
21
100
AcDbEntity
  8
0
100
AcDbBlockEnd
  0
BLOCK
  5
1C
100
AcDbEntity
  8
0
100
AcDbBlockBegin
  2
*PAPER_SPACE
 70
0
 10
0.0
 20
0.0
 30
0.0
  3
*PAPER_SPACE
  1

  0
ENDBLK
  5
1D
100
AcDbEntity
  8
0
100
AcDbBlockEnd
  0
ENDSEC
  0
SECTION
  2
ENTITIES
  0
LINE
  5
209
100
AcDbEntity
  8
0
100
AcDbLine
 62
7
  6
CONTINUOUS
 10
95.6990831692
 20
399.5381782092
 11
329.9630831692
 21
165.6439825353
  0
LINE
  5
20A
100
AcDbEntity
  8
07___PRT_KURVEN
100
AcDbLine
 62
7
  6
CONTINUOUS
 10
95.6990831692
 20
399.5381782092
 11
329.9630831692
 21
165.6439825353
  0
LINE
  5
20B
100
AcDbEntity
  8
07___PRT_KURVEN
100
AcDbLine
 62
7
  6
CONTINUOUS
 10
99.5850972121
 20
403.4303363328
 11
333.8490972121
 21
169.5361406588
  0
LINE
  5
20C
100
AcDbEntity
  8
0
100
AcDbLine
 62
7
  6
CONTINUOUS
 10
333.8490972121
 20
169.5361406588
 11
99.5850972121
 21
403.4303363328
  0
LINE
  5
20D
100
AcDbEntity
  8
0
100
AcDbLine
 62
7
  6
CONTINUOUS
 10
388.9598418202
 20
141.2340195016
 11
797.2438418202
 21
141.2340195016
  0
LINE
  5
20E
100
AcDbEntity
  8
07___PRT_KURVEN
100
AcDbLine
 62
7
  6
CONTINUOUS
 10
388.9598418202
 20
141.2340195016
 11
797.2438418202
 21
141.2340195016
  0
LINE
  5
20F
100
AcDbEntity
  8
0
100
AcDbLine
 62
7
  6
CONTINUOUS
 10
797.2438418202
 20
146.7340195016
 11
388.9598418202
 21
146.7340195016
  0
LINE
  5
210
100
AcDbEntity
  8
07___PRT_KURVEN
100
AcDbLine
 62
7
  6
CONTINUOUS
 10
388.9598418202
 20
146.7340195016
 11
797.2438418202
 21
146.7340195016
  0
LINE
  5
211
100
AcDbEntity
  8
0
100
AcDbLine
 62
7
  6
CONTINUOUS
 10
526.6808418202
 20
697.7340195016
 11
659.5228418202
 21
697.7340195016
  0
LINE
  5
212
100
AcDbEntity
  8
07___PRT_KURVEN
100
AcDbLine
 62
7
  6
CONTINUOUS
 10
526.6808418202
 20
697.7340195016
 11
659.5228418202
 21
697.7340195016
  0
LINE
  5
213
100
AcDbEntity
  8
0
100
AcDbLine
 62
7
  6
CONTINUOUS
 10
659.5228418202
 20
703.2340195016
 11
526.6808418202
 21
703.2340195016
  0
LINE
  5
214
100
AcDbEntity
  8
07___PRT_KURVEN
100
AcDbLine
 62
7
  6
CONTINUOUS
 10
526.6808418202
 20
703.2340195016
 11
659.5228418202
 21
703.2340195016
  0
LINE
  5
215
100
AcDbEntity
  8
0
100
AcDbLine
 62
7
  6
CONTINUOUS
 10
1086.6185864282
 20
403.4303363328
 11
852.3545864282
 21
169.5361406588
  0
LINE
  5
216
100
AcDbEntity
  8
07___PRT_KURVEN
100
AcDbLine
 62
7
  6
CONTINUOUS
 10
1086.6185864282
 20
403.4303363328
 11
852.3545864282
 21
169.5361406588
  0
LINE
  5
217
100
AcDbEntity
  8
07___PRT_KURVEN
100
AcDbLine
 62
7
  6
CONTINUOUS
 10
1090.5046004711
 20
399.5381782092
 11
856.2406004711
 21
165.6439825353
  0
LINE
  5
218
100
AcDbEntity
  8
0
100
AcDbLine
 62
7
  6
CONTINUOUS
 10
856.2406004711
 20
165.6439825353
 11
1090.5046004711
 21
399.5381782092
  0
ARC
  5
219
100
AcDbEntity
  8
0
100
AcDbCircle
 62
7
  6
CONTINUOUS
 10
526.6808418202
 20
109.7340195016
 40
593.5
100
AcDbArc
 50
90.0
 51
136.8346394871
  0
ARC
  5
21A
100
AcDbEntity
  8
07___PRT_KURVEN
100
AcDbCircle
 62
7
  6
CONTINUOUS
 10
526.6808418202
 20
109.7340195016
 40
593.5
100
AcDbArc
 50
90.0
 51
136.8346394871
  0
ARC
  5
21B
100
AcDbEntity
  8
0
100
AcDbCircle
 62
7
  6
CONTINUOUS
 10
526.6808418202
 20
109.7340195016
 40
588.0
100
AcDbArc
 50
90.0
 51
136.8346394871
  0
ARC
  5
21C
100
AcDbEntity
  8
07___PRT_KURVEN
100
AcDbCircle
 62
7
  6
CONTINUOUS
 10
526.6808418202
 20
109.7340195016
 40
588.0
100
AcDbArc
 50
90.0
 51
136.8346394871
  0
ARC
  5
21D
100
AcDbEntity
  8
0
100
AcDbCircle
 62
7
  6
CONTINUOUS
 10
388.9598418202
 20
224.7340195016
 40
83.5
100
AcDbArc
 50
225.0452586816
 51
270.0
  0
ARC
  5
21E
100
AcDbEntity
  8
07___PRT_KURVEN
100
AcDbCircle
 62
7
  6
CONTINUOUS
 10
388.9598418202
 20
224.7340195016
 40
83.5
100
AcDbArc
 50
225.0452586816
 51
270.0
  0
ARC
  5
21F
100
AcDbEntity
  8
0
100
AcDbCircle
 62
7
  6
CONTINUOUS
 10
388.9598418202
 20
224.7340195016
 40
78.0
100
AcDbArc
 50
225.0452586816
 51
270.0
  0
ARC
  5
220
100
AcDbEntity
  8
07___PRT_KURVEN
100
AcDbCircle
 62
7
  6
CONTINUOUS
 10
388.9598418202
 20
224.7340195016
 40
78.0
100
AcDbArc
 50
225.0452586816
 51
270.0
  0
ARC
  5
221
100
AcDbEntity
  8
0
100
AcDbCircle
 62
7
  6
CONTINUOUS
 10
154.6958418202
 20
458.6282151756
 40
83.5
100
AcDbArc
 50
136.8346394871
 51
225.0452586816
  0
ARC
  5
222
100
AcDbEntity
  8
07___PRT_KURVEN
100
AcDbCircle
 62
7
  6
CONTINUOUS
 10
154.6958418202
 20
458.6282151756
 40
83.5
100
AcDbArc
 50
136.8346394871
 51
225.0452586816
  0
ARC
  5
223
100
AcDbEntity
  8
0
100
AcDbCircle
 62
7
  6
CONTINUOUS
 10
154.6958418202
 20
458.6282151756
 40
78.0
100
AcDbArc
 50
136.8346394871
 51
225.0452586816
  0
ARC
  5
224
100
AcDbEntity
  8
07___PRT_KURVEN
100
AcDbCircle
 62
7
  6
CONTINUOUS
 10
154.6958418202
 20
458.6282151756
 40
78.0
100
AcDbArc
 50
136.8346394871
 51
225.0452586816
  0
ARC
  5
225
100
AcDbEntity
  8
0
100
AcDbCircle
 62
7
  6
CONTINUOUS
 10
659.5228418202
 20
109.7340195016
 40
593.5
100
AcDbArc
 50
43.1653605129
 51
90.0
  0
ARC
  5
226
100
AcDbEntity
  8
07___PRT_KURVEN
100
AcDbCircle
 62
7
  6
CONTINUOUS
 10
659.5228418202
 20
109.7340195016
 40
593.5
100
AcDbArc
 50
43.1653605129
 51
90.0
  0
ARC
  5
227
100
AcDbEntity
  8
0
100
AcDbCircle
 62
7
  6
CONTINUOUS
 10
659.5228418202
 20
109.7340195016
 40
588.0
100
AcDbArc
 50
43.1653605129
 51
90.0
  0
ARC
  5
228
100
AcDbEntity
  8
07___PRT_KURVEN
100
AcDbCircle
 62
7
  6
CONTINUOUS
 10
659.5228418202
 20
109.7340195016
 40
588.0
100
AcDbArc
 50
43.1653605129
 51
90.0
  0
ARC
  5
229
100
AcDbEntity
  8
0
100
AcDbCircle
 62
7
  6
CONTINUOUS
 10
797.2438418202
 20
224.7340195016
 40
83.5
100
AcDbArc
 50
270.0
 51
314.9547413184
  0
ARC
  5
22A
100
AcDbEntity
  8
07___PRT_KURVEN
100
AcDbCircle
 62
7
  6
CONTINUOUS
 10
797.2438418202
 20
224.7340195016
 40
83.5
100
AcDbArc
 50
270.0
 51
314.9547413184
  0
ARC
  5
22B
100
AcDbEntity
  8
0
100
AcDbCircle
 62
7
  6
CONTINUOUS
 10
797.2438418202
 20
224.7340195016
 40
78.0
100
AcDbArc
 50
270.0
 51
314.9547413184
  0
ARC
  5
22C
100
AcDbEntity
  8
07___PRT_KURVEN
100
AcDbCircle
 62
7
  6
CONTINUOUS
 10
797.2438418202
 20
224.7340195016
 40
78.0
100
AcDbArc
 50
270.0
 51
314.9547413184
  0
ARC
  5
22D
100
AcDbEntity
  8
0
100
AcDbCircle
 62
7
  6
CONTINUOUS
 10
1031.5078418202
 20
458.6282151756
 40
83.5
100
AcDbArc
 50
314.9547413184
 51
43.1653605129
  0
ARC
  5
22E
100
AcDbEntity
  8
07___PRT_KURVEN
100
AcDbCircle
 62
7
  6
CONTINUOUS
 10
1031.5078418202
 20
458.6282151756
 40
83.5
100
AcDbArc
 50
314.9547413184
 51
43.1653605129
  0
ARC
  5
22F
100
AcDbEntity
  8
0
100
AcDbCircle
 62
7
  6
CONTINUOUS
 10
1031.5078418202
 20
458.6282151756
 40
78.0
100
AcDbArc
 50
314.9547413184
 51
43.1653605129
  0
ARC
  5
230
100
AcDbEntity
  8
07___PRT_KURVEN
100
AcDbCircle
 62
7
  6
CONTINUOUS
 10
1031.5078418202
 20
458.6282151756
 40
78.0
100
AcDbArc
 50
314.9547413184
 51
43.1653605129
  0
ENDSEC
  0
SECTION
  2
OBJECTS
  0
DICTIONARY
  5
231
100
AcDbDictionary
  3
ACAD_GROUP
350
232
  3
ACAD_MLINESTYLE
350
233
  0
DICTIONARY
  5
232
102
{ACAD_REACTORS
330
231
102
}
100
AcDbDictionary
  0
DICTIONARY
  5
233
102
{ACAD_REACTORS
330
231
102
}
100
AcDbDictionary
  3
STANDARD
350
234
  0
MLINESTYLE
  5
234
102
{ACAD_REACTORS
330
233
102
}
100
AcDbMlineStyle
  2
STANDARD
 70
0
  3

 62
256
 51
90.0
 52
90.0
 71
2
 49
0.5
 62
256
  6
BYLAYER
 49
-0.5
 62
256
  6
BYLAYER
  0
ENDSEC
  0
EOF
